Iron Maiden - Trooper (var.24) Gitarrennoten kostenlos herutnerladen oder online abspielen

Gitarrennoten für Trooper (var.24) von Iron Maiden kostenlos herutnerladen oder online abspielen: Datei .txt, 2.11 kb hat 412 Aufrufe und 0 Downloads.

Download gitarrennoten "Trooper (var.24)" (Iron Maiden)

Iron Maiden Bandname
Trooper Songname
Gitarrennoten Registerkarten-Typ
2.11 kb Dateigröße
.TXT Dateityp
412 Aufrufe
0 Downloads
 
Bist du ein Roboter?

Trooper (var.24) gitarrennoten lesen onder online abpsielen

                    PARTE 1 
 
e|-------------------------------|---------------------------| 
B|-------------------------------|---------------------------| 
G|-------------------------------|---------------------------| 
D|-------------------------------|---------------------------|         X 4 
A|--7--7---7p5----5--5---5p3-----|---3--3---3p2-----2--3--5--| 
E|--------------7-------------5--|---------------3-----------| 
 
 
 
Parte 2 
 
 
e|----------------7------------|-----------------------------| 
B|--8---7p8p7-----8---7p8p7----|--8------------------7-------| 
G|-----------------------------|------9---7p9p7---7----7--9--| 
D|-----------------------------|-----------------------------| 
A|-----------------------------|-----------------------------| 
E|-----------------------------|-----------------------------| 
 
 
Essa parte й mais rбpida e um pouco mais difнcil.  
 
Ouзa a mъsica para pegar o ritmo e o nъmero de vezes que cada uma й repitida. 
 
 
 
_______________________________________________________ 
Contribuiзгo: Rodolfo Fernandes(rodolfocf2@hotmail.com)"
var fontTamanho = '12px'

function alteraFonte()
{
fontTamanho = (fontTamanho == '12px' ? '16px' : '12px'); 
document.getElementById("spCifra").style.font = fontTamanho
}
function montaEscala(pAcorde){
	window.open('escalas.html?acorde=' + pAcorde,'escala', 'width=650, height=150, toolbars=no, statusbar=no, location=no')
}





.smalltext{font-size: 8pt}
.nota {font-size: 7pt; color:black; background-color:white}
.border {border: 1px solid #3F6A82}
sda {font-family: arial; font-size: 10pt; color: blue}
.b {font-family: arial; font-size: 10pt}
.db {color: darkblue; font-weight:bold; cursor:hand}
pre {font-family:;font-size:10pt;} 



   
     
    
      
  




  
  Iron Maiden 
  The Trooper
  










 





 




   
    
         
            
            
            Print 
		  
            
            Send toe-amail


           
		   
		  
            Add toSongbook 

			
           
            


          more Iron Maiden, The Trooper tabs at GoogleTabs
        
		

	
		Songbook                    

Kommentare für gitarrennoten — Trooper (var.24) (Iron Maiden)

Andere Trooper (var.24) von Iron Maiden Registerkarten:

Zuletzt angesehene Iron Maiden Registerkarten: