Iron Maiden - Afraid To Shoot Strangers (var.24) Gitarrennoten kostenlos herutnerladen oder online abspielen

Gitarrennoten für Afraid To Shoot Strangers (var.24) von Iron Maiden kostenlos herutnerladen oder online abspielen: Datei .txt, 8.32 kb hat 377 Aufrufe und 0 Downloads.

Download gitarrennoten "Afraid To Shoot Strangers (var.24)" (Iron Maiden)

Iron Maiden Bandname
Afraid To Shoot Strangers Songname
Gitarrennoten Registerkarten-Typ
8.32 kb Dateigröße
.TXT Dateityp
377 Aufrufe
0 Downloads
 
Bist du ein Roboter?

Afraid To Shoot Strangers (var.24) gitarrennoten lesen onder online abpsielen

                    #----------------------------------PLEASE NOTE---------------------------------#
#This file is the author's own work and represents their interpretation of the #
#song. You may only use this file for private study, scholarship, or research. #
#------------------------------------------------------------------------------#

  
  
Afraid to Shoot Strangers
by Iron Maiden
Album, Fear of the Dark
from Andres(Metal Monk)
intro (clean sound)
-------------------------------
------7-7h9--7-----------------
-7h9---------------9-8-6h8-----
---------------------------9---
-------------------------------
-------------------------------

------------------------------------------
-10h12-10-8h10-7--------------------------
-----------------9-7-6-----6---6-6-6p4----
-----------------------9-7------------6h9-
------------------------------------------
------------------------------------------

-------------------------------
------7-7h9—-7-----------------
-7h9---------------9-8-6h8-----
---------------------------9---
-------------------------------
-------------------------------

--------------------------------------------------
-10h12-10-8h10-7----------------------------------
-----------------9-7-6-----6---6-6-6p4------------
-----------------------9-7------------6h9---6-9-6-
--------------------------------------------------
--------------------------------------------------
clean rhythym (during above part)
----------------------------------------------------------
----------------------------------------------------------
-------------------------------------------6---6----------
-----2---2-----(4X)-----5---5-----(4X)---6---6---6---(4X)-
---2---2---2----------5---5---5--------4-----------4------
-0-----------0------3-----------3-------------------------
                                                 ending
-----------------------------------------------------
-----------------------------------------------------
-----4---4-------------------------------------------
---4---4---4---(4X)------------6---6-------6---6-----
-2-----------2---------------6---6---6---6---6---6---
---------------------------4-----------4-----------4-
Lying awake at night... (section 1)
-----------------------------------------------------------
-----------------------------------------------------------
-------------------------6---6--------------7---7----------
-----2---2-----(4X)----6---6---6---(4X)---7---7---7---(4X)-
---2---2---2---------4-----------4------5-----------5------
-0-----------0---------------------------------------------




--------------------------------------------------
--------------------------------------------------
-----4---4----------------------------------------
---4---4---4---(4X)-------------------------------
-2-----------2------------------------------------
--------------------------------------------------
When it comes to the time... (section 2)
---------------------------------------------------------
---------------------------------------------------------
-----5---5-------6---6-------3---3-------5---5------(4X)-
---5---5---5---6---6---6---3---3---3---5---5---5---------
-3-----------4-----------1-----------3-----------3-------
---------------------------------------------------------
repeat Section 1
repeat Section 2
Harmony 1
-----------------------------9------------------------------------
-------9-10p9----10----10-12---12-10-12---9-10-12---9-10-12-10-9--
----11--------11----11------------------9---------9---------------
-11---------------------------------------------------------------
------------------------------------------------------------------
------------------------------------------------------------------

--------------------------------------------------
---------9----------------------------------------
-11-9-11---11-------------------------------------
--------------------------------------------------
--------------------------------------------------
--------------------------------------------------
                                          Afraid to shoot strangers…
----------------------------------------------------------------------
-10-10-10-12-10--9-10-----9---9-9-9-9---------------------9-----------
-----------------------11--------------9-11-11-11-11-9-11---11p9h11---
----------------------------------------------------------------------
----------------------------------------------------------------------
----------------------------------------------------------------------
Fast rhythm (during solo also)
listen to song to get rhythm
--------------------------------------------------
--------------------------------------------------
-9-----------7-7---5-5----------------------------
-9--(10X)----7-7---5-5----------------------------
-7-----------5-5---3-3----------------------------
--------------------------------------------------

--------------------------------------------------
--------------------------------------------------
-9-----------7-7---5-5----------------------------
-9--(10X)----7-7---5-5----------------------------
-7-----------5-5---3-3----------------------------
--------------------------------------------------






--------------------------------------------------
--------------------------------------------------
-7------------------------------------------------
-7--(10X)--7-7---9-9------------------------------
-5---------7-7---9-9------------------------------
-----------5-5---7-7------------------------------

--------------------------------------------------
--------------------------------------------------
-9-----------7-7---5-5----------------------------
-9--(10X)----7-7---5-5----------------------------
-7-----------5-5---3-3----------------------------
--------------------------------------------------
interlude
----------------------------------------10^-------
-8-10-10^-10-8---8-10-10^-8-7-10^-8-7-8-----------
--------------------------------------------------
--------------------------------------------------
--------------------------------------------------
--------------------------------------------------

----------------------------------------10^-------
-8-10-10^-10-8---8-10-10^-8-7-10^-8-7-8-----------
--------------------------------------------------
--------------------------------------------------
--------------------------------------------------
--------------------------------------------------

-8-10-10^-10-8--8-10-10^-8-7-10^-8-7-8---15^--15^-
--------------------------------------------------
--------------------------------------------------
--------------------------------------------------
--------------------------------------------------
--------------------------------------------------

----------------------------------------10^-------
-8-10-10^-10-8---8-10-10^-8-7-10^-8-7-8-----------
--------------------------------------------------
--------------------------------------------------
--------------------------------------------------
--------------------------------------------------
Rhythm 2  Afraid... Afraid to shoot strangers... Afraid...
--------------------------------------------------------
--------------------------------------------------------
---------------9-7--------------9-7--------------9--7---
-7--9----7--9--7-5--7--9---7-9--7-5--5--7--5--7--7--5---
-5--7----5--7-------5--7---5-7-------3--5--3--5---------
--------------------------------------------------------
repeat fast rhythm
Second harmony interlude
------------9--10-9----------------------------------------------------
----9-10-12---------12-10-9-10---12--10-9-------------10-10-10--10-9---
-11---------------------------------------9---9----------------------9-
-------------------------------------------------11-12-----------------
-----------------------------------------------------------------------
-----------------------------------------------------------------------

last time play slowly
----------------------------------------------------------------------
-10-10-10-12-10--9-10-----9---9-9-9-9---------------------9-----------
-----------------------11--------------9-11-11-11-11-9-11---11p9h11---
----------------------------------------------------------------------
----------------------------------------------------------------------
----------------------------------------------------------------------

Ask questions at my mail, hetermask_09@hotmail.com
Before any question, please hear the song carefully.

  

For more free tablature visit www.directTABS.com                    

Kommentare für gitarrennoten — Afraid To Shoot Strangers (var.24) (Iron Maiden)

Andere Afraid To Shoot Strangers (var.24) von Iron Maiden Registerkarten:

Zuletzt angesehene Iron Maiden Registerkarten: