Iron Maiden - 22 Acacia Avenue (var.18) Gitarrennoten kostenlos herutnerladen oder online abspielen

Gitarrennoten für 22 Acacia Avenue (var.18) von Iron Maiden kostenlos herutnerladen oder online abspielen: Datei .txt, 15 kb hat 496 Aufrufe und 0 Downloads.

Download gitarrennoten "22 Acacia Avenue (var.18)" (Iron Maiden)

Iron Maiden Bandname
22 Acacia Avenue Songname
Gitarrennoten Registerkarten-Typ
15 kb Dateigröße
.TXT Dateityp
496 Aufrufe
0 Downloads
 
Bist du ein Roboter?

22 Acacia Avenue (var.18) gitarrennoten lesen onder online abpsielen

                    #----------------------------------PLEASE NOTE---------------------------------#
#This file is the author's own work and represents their interpretation of the #
#song. You may only use this file for private study, scholarship, or research. #
#------------------------------------------------------------------------------#

  
  
Band:  (iron maiden)
Album: (the number of the beast)
Song:  (22 acacia avenue)

Copyright (c)  (emi) (1982)

Transcribed By: (chris garr)
Email:          (burnip.garr@btopenworld.com)


.  - palm mute           /  - slide up to
  - slide down to       ~  - vibrato
h  - hammer on           b  - Bend
p  - pull off            Suffixes for bend
t  - tap                 f  - full bend    h - half bend
ph - pinched harmonic    q  - quarter bend t - tap bend
*  - see comment         ^  - Hold bend    r release bend
x  - Stuccatto           ~  - vibrato bend
,  - slight palm mute    () - ghost note, sustained note
"  - tremolo note        <> - Trill

Tunning E A D G B E

|-------------------------------------------------------------------|
|-------------------------------------------------------------------|
|-------------------------------------------------------------------|
|-9----------------------------7---9--------------------------------|
|-7-7-7-7-7-7-7-7-7-7-7-7-7----5---7-7-7-7-7-7-7-7-7-7-7-7-7--------|
|-------------------------------------------------------------------|
 pm........................pm.......................................

|-------------------------------------------------------------------|
|-------------------------------------------------------------------|
|-------------------------------------------------------------------|
|-7--------------------7-7-7-7---9----------------------------------|
|-5-5-5-5-5-5-5-5-5-5--5-5-5-5---7-7-7-7-7-7-7-7-7-7-7--------------|
|-------------------------------------------------------------------|
 pm.........................pm......................................

|-------------------------------------------------------------------|
|-------------------------------------------------------------------|
|-------------------------------------------------------------------|
|-7-----------------------7-7-7-7---5-------------------------------|
|-5-5-5-5-5-5-5-5-5-5-5---5-5-5-5---3-3-3-3-3-3-3-3-3-3-3-3-3-3-----|
|-------------------------------------------------------------------|
pm..............................pm..................................

|-------------------------------------------------------------------|
|-------------------------------------------------------------------|
|-------------------------------------------------------------------|
|-7-7-7-7----9--------------------------9-8-7-5---------------------|
|-5-5-5-5----7-7-7-7-7-7-7-7-7-7-7-7----7-6-5-3---------------------|
|-------------------------------------------------------------------|
 pm..............pm.................
|-------------------------------------------------------------------|
|-------------------------------------------------------------------|
|-------------------------------------------------------------------|
|-7-7---9-9-9-9-9-9-9-9----7--9-9-9-9-9-9---------------------------|
|-5-5---7-7-7-7-7-7-7-7----5--7-7-7-7-7-7---------------------------|
|-------------------------------------------------------------------|

adrian smith fill 1
|----------------3p0------------------------------------------------|
|-------------0-----------------------------------------------------|
|-----------0-------------------------------------------------------|
|-----2---2---------------------------------------------------------|
|---2---2-----------------------------------------------------------|
|-0-----------------------------------------------------------------|

adrian smith fill 2
|-------------------------------------------------------------------|
|-------------------------------------------------------------------|
|----0---0----0-----------------------------------------------------|
|--5---4----2-------------------------------------------------------|
|----------------5-3-2-0--------------------------------------------|
|-------------------------------------------------------------------|

|-------------------------------------------------------------------|
|-------------------------------------------------------------------|
|---------------------------4---------------------------------------|
|-2-------------------------5---------------7p5---------------------|
|-2----------------5-7-------------5-7----------7~~~----------------|
|-0/121-----0-0-----0-0-----0-0-----0-0--------------------------|

|-------------------------------------------------------------------|
|-------------------------------------------------------------------|
|-------------------------------------------------------------------|
|--------5-5-5-4-4-4-5--------5-5-5-4-4-4-5p4p0---------------------|
|-3-3-3-----------------3-3-3---------------------------------------|
|-------------------------------------------------------------------|

|---------------------------------------2---------------------------|
|--------------------3------------------3---------------------------|
|--------------------4------------------2---------------------------|
|-5--------7---------4-------5-----5---------7-9-------------7-9----|
|-3--------5---------2-------3-----3---------5-7-------------5-7----|
|------------------------------------------------0-0-0-0-0-0-----0-0|

adrian's fill                                  dave's fill
|-------------------------------------------------------------------|
|-------------------------------------------------------------------|
|-------------------------------------------5-4---4-----------------|
|-----------------------------------------------7---7-5-7-5-4-5-4---|
|-3-2-0-2-0----0--------------------------------------------------7-|
|------------3---3-2-3-2-0------------------------------------------|

|-------------------------------------------------------------------|
|-------------------------------------------------------------------|
|-------------------------------------------------------------------|
|-----------7-9-----------------------7-9---------------------------|
|-----------5-7-----------------------5-7---------------------------|
|-0-0-0-0-------0-0-0-0-0-0-0-0-0-0-0------0-0-0-0-0-0-0-0-0-0-0----|

|-------------------------------------------------------------------|
|-------------------------------------------------------------------|
|-------------------------------------------------------------------|
|--7-9-----------------------7-9------------------------------------|
|--5-7-----------------------5-7------------------------------------|
|-------0-0-0-0-0-0-0-0-0-0--------0-0-0-0-0-0-0-0-0-0-0------------|


|-------------------------------------------------------------------|
|-------------------------------------------------------------------|
|-------------------------------------------------------------------|
|-5-5-5-4-4-4-5-5-5-4-4-4---2-----3-2-------------------------------|
|---------------------------2---------3-2---------------------------|
|---------------------------0-------------3-2p0---------------------|

chords for dave's solo
|-----2-------------------------------------------------------------|
|-----3-------------------------------------------------------------|
|-----2-------------------------------------------------------------|
|-2-------5-----3-2-------------------------------------------------|
|-2-------3---------3-2---------------------------------------------|
|-0---------------------3-2p0---------------------------------------|

dave's solo
|-------------------------------------------------------------------|
|-------------------------------------------------------------------|
|-14br14-slow-release-12h14p12--------------------------------------|
|------------------------------14~~~--------------------12h14-------|
|-------------------------------------12h14p12----12h14-------------|
|----------------------------------------------15-------------------|

|-------------------------------------------------------------------|
|-----------15b~~~~~15-13p12---10h12p10-8h10p8-7h8p7----------------|
|-14br14-12-------------------------------------------7-7br---------|
|-------------------------------------------------------------------|
|-------------------------------------------------------------------|
|-------------------------------------------------------------------|

|-------------------------------------10h12/15br15-12---------------|
|-7br7p5-------------------7-8-10/12------------------15b-----------|
|--------7br-5h7p54---7/9------------------------------------------|
|-------------------------------------------------------------------|
|-------------------------------------------------------------------|
|-------------------------------------------------------------------|

|-12-15p14p12-------------------------------------------------------|
|-------------15b-----------------------12br12~~--------------------|
|-----------------14br14-12-14p12-----------------------------------|
|---------------------------------14~~------------------------------|
|-------------------------------------------------------------------|
|-------------------------------------------------------------------|

|-------------------------------------------------------------------|
|-------------------------------------------15----15/1715/17/1917-|
|-------11-------11-12/1412/14/1614/16/17----17-------------------|
|-12/14----12-14----------------------------------------------------|
|-------------------------------------------------------------------|
|-------------------------------------------------------------------|

|--------------17br17-15-17~~---------------------------------------|
|-19/2019/20------------------19br19-17h19p17----------------------|
|----------------------------------------------17~~~----------------|
|-------------------------------------------------------------------|
|-------------------------------------------------------------------|
|-------------------------------------------------------------------|

|-------------------------------------------------------------------|
|--------------19b~~~~~~~~~~~~~~~~~---------------------------------|
|-19br19-17-16------------------------------------------------------|
|-------------------------------------------------------------------|
|-------------------------------------------------------------------|
|-------------------------------------------------------------------|

(adrian smith solo)
------------------------------12-14----12---------------------------
-15br15br15br15-12-15r15b~~~~-------15----14h15-12-14----12---------
------------------------------------------------------15-----14-15--
--------------------------------------------------------------------
--------------------------------------------------------------------
--------------------------------------------------------------------

--------------------------------------------------------------------
-----------------------------------------------------12h13p12-------
-12--------------------------------------------12~~~----------14p12-
-12--14-12-------------------------------12h14----------------------
-----------14-13-12-10~~~-------10-12/14----------------------------
--------------------------10-12-------------------------------------

--------------------------------------------------------------------
--------12h15p12-----12h15p12----12h15p12---------------------------
-14-14b----------14b----------14-----------12-14r14br12-------------
--------------------------------------------------------------------
--------------------------------------------------------------------
--------------------------------------------------------------------

-----12h15p12-----12h17p12-----12h15p12-----12h17p12------12h14p12--
-15b----------15b----------15b----------15b-----------15b-----------
--------------------------------------------------------------------
--------------------------------------------------------------------
--------------------------------------------------------------------
--------------------------------------------------------------------

-----12h14p12-------------------17-17-17-17p15-14h15p14-12h14p12----
-15b----------15br15br15b~~~~---------------------------------------
--------------------------------------------------------------------
--------------------------------------------------------------------
--------------------------------------------------------------------
--------------------------------------------------------------------

--10h12p10-8h10p8-7h8p7-5hh7p5-3h5p3-2h3p2p0------------------------
--------------------------------------------------15b---------------
-----------------------------------------------14b-----12h14p12~~~~-
-------------------------------------------------------12h14p12~~~--
--------------------------------------------------------------------
--------------------------------------------------------------------

-0-0-0-0-0-0--0-0-0-0-0-0-0--0-0-0-0-0-0-0-0--0-0-0-0-0-0-0-0-------
-3h5-5-5-5-5--3h5-5-5-5-5-5--3h5-5-5-5-5-5-5--3h5-5-5-5-5-5-5-------
--------------------------------------------------------------------
--------------------------------------------------------------------
--------------------------------------------------------------------
--------------------------------------------------------------------

-0-0-0-0--0---0--0--0---0-0-0-0-0---0--0--0--0----------------------
-8-8-8-8--10-10-10-10---8-8-8-8-8--10-10-10-10----------------------
--------------------------------------------------------------------
--------------------------------------------------------------------
--------------------------------------------------------------------
--------------------------------------------------------------------

---0--0--0--0-0-0-0--0-0-0-0--0-0-0-0-0---0-0-0-0-------------------
--10-10-10--8-8-8-8--7-7-7-7--5-5-5-5-5---3-3-3-3---3h5p3h5p3-------
--------------------------------------------------------------------
--------------------------------------------------------------------
--------------------------------------------------------------------
--------------------------------------------------------------------

--------------------------------------------------------------------
--------------------------------------------------------------------
-2br2-0h2p0--------------------12xx12xx14xx14--12--14br14-12-14-12--
------------2p0----------------12xx12xx14xx14--12-------------------
----------------2p0-------------------------------------------------
--------------------3p2p0-------------------------------------------

---------------------12---------------------------------------------
------------------------12--15b~~~~---------------------------------
-12xx12xx14xx14--12-------------------12xx12xx14xx14----------------
-12xx12xx14xx14--12-------------------12xx12xx14xx14----------------
--------------------------------------------------------------------
--------------------------------------------------------------------
i dont know the fill he does at the end wish i did.
that's it finished.

  

For more free tablature visit www.directTABS.com                    

Kommentare für gitarrennoten — 22 Acacia Avenue (var.18) (Iron Maiden)

Andere 22 Acacia Avenue (var.18) von Iron Maiden Registerkarten:

Zuletzt angesehene Iron Maiden Registerkarten: